  0
SECTION
  2
HEADER
  9
$ACADVER
  1
AC1015
  9
$ACADMAINTVER
 70
     6
  9
$DWGCODEPAGE
  3
ANSI_1254
  9
$INSBASE
 10
0.0
 20
0.0
 30
0.0
  9
$EXTMIN
 10
0.0
 20
0.0
 30
0.0
  9
$EXTMAX
 10
279.4
 20
215.9
 30
0.0
  9
$LIMMIN
 10
0.0
 20
0.0
  9
$LIMMAX
 10
279.4
 20
215.9
  9
$ORTHOMODE
 70
     0
  9
$REGENMODE
 70
     1
  9
$FILLMODE
 70
     1
  9
$QTEXTMODE
 70
     0
  9
$MIRRTEXT
 70
     1
  9
$LTSCALE
 40
1.0
  9
$ATTMODE
 70
     1
  9
$TEXTSIZE
 40
3.5
  9
$TRACEWID
 40
1.0
  9
$TEXTSTYLE
  7
Standard
  9
$CLAYER
  8
0
  9
$CELTYPE
  6
ByLayer
  9
$CECOLOR
 62
   256
  9
$CELTSCALE
 40
1.0
  9
$DISPSILH
 70
     0
  9
$DIMSCALE
 40
1.0
  9
$DIMASZ
 40
3.5
  9
$DIMEXO
 40
1.0
  9
$DIMDLI
 40
3.75
  9
$DIMRND
 40
0.0
  9
$DIMDLE
 40
0.0
  9
$DIMEXE
 40
1.0
  9
$DIMTP
 40
0.0
  9
$DIMTM
 40
0.0
  9
$DIMTXT
 40
3.5
  9
$DIMCEN
 40
2.5
  9
$DIMTSZ
 40
0.0
  9
$DIMTOL
 70
     0
  9
$DIMLIM
 70
     0
  9
$DIMTIH
 70
     1
  9
$DIMTOH
 70
     1
  9
$DIMSE1
 70
     0
  9
$DIMSE2
 70
     0
  9
$DIMTAD
 70
     1
  9
$DIMZIN
 70
     0
  9
$DIMBLK
  1

  9
$DIMASO
 70
     1
  9
$DIMSHO
 70
     1
  9
$DIMPOST
  1

  9
$DIMAPOST
  1

  9
$DIMALT
 70
     0
  9
$DIMALTD
 70
     3
  9
$DIMALTF
 40
0.0393700787
  9
$DIMLFAC
 40
1.0
  9
$DIMTOFL
 70
     1
  9
$DIMTVP
 40
0.0
  9
$DIMTIX
 70
     0
  9
$DIMSOXD
 70
     0
  9
$DIMSAH
 70
     0
  9
$DIMBLK1
  1

  9
$DIMBLK2
  1

  9
$DIMSTYLE
  2
ISO-25
  9
$DIMCLRD
 70
     0
  9
$DIMCLRE
 70
     0
  9
$DIMCLRT
 70
     0
  9
$DIMTFAC
 40
1.0
  9
$DIMGAP
 40
1.524
  9
$DIMJUST
 70
     0
  9
$DIMSD1
 70
     0
  9
$DIMSD2
 70
     0
  9
$DIMTOLJ
 70
     0
  9
$DIMTZIN
 70
     0
  9
$DIMALTZ
 70
     0
  9
$DIMALTTZ
 70
     0
  9
$DIMUPT
 70
     0
  9
$DIMDEC
 70
     2
  9
$DIMTDEC
 70
     2
  9
$DIMALTU
 70
     2
  9
$DIMALTTD
 70
     3
  9
$DIMTXSTY
  7
Standard
  9
$DIMAUNIT
 70
     0
  9
$DIMADEC
 70
     2
  9
$DIMALTRND
 40
0.0
  9
$DIMAZIN
 70
     0
  9
$DIMDSEP
 70
    44
  9
$DIMATFIT
 70
     3
  9
$DIMFRAC
 70
     0
  9
$DIMLDRBLK
  1

  9
$DIMLUNIT
 70
     2
  9
$DIMLWD
 70
    -2
  9
$DIMLWE
 70
    -2
  9
$DIMTMOVE
 70
     0
  9
$LUNITS
 70
     2
  9
$LUPREC
 70
     2
  9
$SKETCHINC
 40
1.0
  9
$FILLETRAD
 40
10.0
  9
$AUNITS
 70
     0
  9
$AUPREC
 70
     2
  9
$MENU
  1
.
  9
$ELEVATION
 40
0.0
  9
$PELEVATION
 40
0.0
  9
$THICKNESS
 40
0.0
  9
$LIMCHECK
 70
     0
  9
$CHAMFERA
 40
0.0
  9
$CHAMFERB
 40
0.0
  9
$CHAMFERC
 40
0.0
  9
$CHAMFERD
 40
0.0
  9
$SKPOLY
 70
     0
  9
$TDCREATE
 40
2458985.705738993
  9
$TDUCREATE
 40
2458985.580738993
  9
$TDUPDATE
 40
2458985.705739514
  9
$TDUUPDATE
 40
2458985.580739514
  9
$TDINDWG
 40
0.0000000116
  9
$TDUSRTIMER
 40
0.0000000116
  9
$USRTIMER
 70
     1
  9
$ANGBASE
 50
0.0
  9
$ANGDIR
 70
     0
  9
$PDMODE
 70
     0
  9
$PDSIZE
 40
-1.0
  9
$PLINEWID
 40
0.0
  9
$SPLFRAME
 70
     0
  9
$SPLINETYPE
 70
     6
  9
$SPLINESEGS
 70
     8
  9
$HANDSEED
  5
EF
  9
$SURFTAB1
 70
     6
  9
$SURFTAB2
 70
     6
  9
$SURFTYPE
 70
     6
  9
$SURFU
 70
     6
  9
$SURFV
 70
     6
  9
$UCSBASE
  2

  9
$UCSNAME
  2

  9
$UCSORG
 10
0.0
 20
0.0
 30
0.0
  9
$UCSXDIR
 10
1.0
 20
0.0
 30
0.0
  9
$UCSYDIR
 10
0.0
 20
1.0
 30
0.0
  9
$UCSORTHOREF
  2

  9
$UCSORTHOVIEW
 70
     0
  9
$UCSORGTOP
 10
0.0
 20
0.0
 30
0.0
  9
$UCSORGBOTTOM
 10
0.0
 20
0.0
 30
0.0
  9
$UCSORGLEFT
 10
0.0
 20
0.0
 30
0.0
  9
$UCSORGRIGHT
 10
0.0
 20
0.0
 30
0.0
  9
$UCSORGFRONT
 10
0.0
 20
0.0
 30
0.0
  9
$UCSORGBACK
 10
0.0
 20
0.0
 30
0.0
  9
$PUCSBASE
  2

  9
$PUCSNAME
  2

  9
$PUCSORG
 10
0.0
 20
0.0
 30
0.0
  9
$PUCSXDIR
 10
1.0
 20
0.0
 30
0.0
  9
$PUCSYDIR
 10
0.0
 20
1.0
 30
0.0
  9
$PUCSORTHOREF
  2

  9
$PUCSORTHOVIEW
 70
     0
  9
$PUCSORGTOP
 10
0.0
 20
0.0
 30
0.0
  9
$PUCSORGBOTTOM
 10
0.0
 20
0.0
 30
0.0
  9
$PUCSORGLEFT
 10
0.0
 20
0.0
 30
0.0
  9
$PUCSORGRIGHT
 10
0.0
 20
0.0
 30
0.0
  9
$PUCSORGFRONT
 10
0.0
 20
0.0
 30
0.0
  9
$PUCSORGBACK
 10
0.0
 20
0.0
 30
0.0
  9
$USERI1
 70
     0
  9
$USERI2
 70
     0
  9
$USERI3
 70
     0
  9
$USERI4
 70
     0
  9
$USERI5
 70
     0
  9
$USERR1
 40
0.0
  9
$USERR2
 40
0.0
  9
$USERR3
 40
0.0
  9
$USERR4
 40
0.0
  9
$USERR5
 40
0.0
  9
$WORLDVIEW
 70
     1
  9
$SHADEDGE
 70
     3
  9
$SHADEDIF
 70
    70
  9
$TILEMODE
 70
     1
  9
$MAXACTVP
 70
    64
  9
$PINSBASE
 10
0.0
 20
0.0
 30
0.0
  9
$PLIMCHECK
 70
     0
  9
$PEXTMIN
 10
1.0000000000E+20
 20
1.0000000000E+20
 30
1.0000000000E+20
  9
$PEXTMAX
 10
-1.0000000000E+20
 20
-1.0000000000E+20
 30
-1.0000000000E+20
  9
$PLIMMIN
 10
0.0
 20
0.0
  9
$PLIMMAX
 10
420.0
 20
297.0
  9
$UNITMODE
 70
     0
  9
$VISRETAIN
 70
     1
  9
$PLINEGEN
 70
     0
  9
$PSLTSCALE
 70
     1
  9
$TREEDEPTH
 70
  3020
  9
$CMLSTYLE
  2
Standard
  9
$CMLJUST
 70
     0
  9
$CMLSCALE
 40
20.0
  9
$PROXYGRAPHICS
 70
     1
  9
$MEASUREMENT
 70
     1
  9
$CELWEIGHT
370
    -1
  9
$ENDCAPS
280
     0
  9
$JOINSTYLE
280
     0
  9
$LWDISPLAY
290
     1
  9
$INSUNITS
 70
     4
  9
$HYPERLINKBASE
  1

  9
$STYLESHEET
  1

  9
$XEDIT
290
     1
  9
$CEPSNTYPE
380
     0
  9
$PSTYLEMODE
290
     1
  9
$FINGERPRINTGUID
  2
{6cba487c-85bf-47c8-9f46-5f7b9a185d3a}
  9
$VERSIONGUID
  2
{FAEB1C32-E019-11D5-929B-00C0DF256EC4}
  9
$EXTNAMES
290
     1
  9
$PSVPSCALE
 40
0.0
  9
$OLESTARTUP
290
     0
  0
ENDSEC
  0
SECTION
  2
CLASSES
  0
CLASS
  1
ACDBDICTIONARYWDFLT
  2
AcDbDictionaryWithDefault
  3
ObjectDBX Classes
 90
        0
280
     0
281
     0
  0
CLASS
  1
VISUALSTYLE
  2
AcDbVisualStyle
  3
ObjectDBX Classes
 90
     4095
280
     0
281
     0
  0
CLASS
  1
MATERIAL
  2
AcDbMaterial
  3
ObjectDBX Classes
 90
     1153
280
     0
281
     0
  0
CLASS
  1
SCALE
  2
AcDbScale
  3
ObjectDBX Classes
 90
     1153
280
     0
281
     0
  0
CLASS
  1
TABLESTYLE
  2
AcDbTableStyle
  3
ObjectDBX Classes
 90
     4095
280
     0
281
     0
  0
CLASS
  1
MLEADERSTYLE
  2
AcDbMLeaderStyle
  3
ACDB_MLEADERSTYLE_CLASS
 90
     4095
280
     0
281
     0
  0
CLASS
  1
SUN
  2
AcDbSun
  3
SCENEOE
 90
     1153
280
     0
281
     0
  0
CLASS
  1
ACDBPLACEHOLDER
  2
AcDbPlaceHolder
  3
ObjectDBX Classes
 90
        0
280
     0
281
     0
  0
CLASS
  1
LAYOUT
  2
AcDbLayout
  3
ObjectDBX Classes
 90
        0
280
     0
281
     0
  0
ENDSEC
  0
SECTION
  2
TABLES
  0
TABLE
  2
VPORT
  5
8
330
0
100
AcDbSymbolTable
 70
     1
  0
VPORT
  5
29
330
8
100
AcDbSymbolTableRecord
100
AcDbViewportTableRecord
  2
*Active
 70
     0
 10
0.0
 20
0.0
 11
1.0
 21
1.0
 12
139.7
 22
107.95
 13
0.0
 23
0.0
 14
10.0
 24
10.0
 15
10.0
 25
10.0
 16
0.0
 26
0.0
 36
1.0
 17
0.0
 27
0.0
 37
0.0
 40
215.9
 41
1.2941176471
 42
50.0
 43
0.0
 44
0.0
 50
0.0
 51
0.0
 71
     0
 72
  2000
 73
     1
 74
     3
 75
     0
 76
     0
 77
     0
 78
     0
281
     0
 65
     1
110
0.0
120
0.0
130
0.0
111
1.0
121
0.0
131
0.0
112
0.0
122
1.0
132
0.0
 79
     0
146
0.0
  0
ENDTAB
  0
TABLE
  2
LTYPE
  5
5
330
0
100
AcDbSymbolTable
 70
     6
  0
LTYPE
  5
14
330
5
100
AcDbSymbolTableRecord
100
AcDbLinetypeTableRecord
  2
ByBlock
 70
     0
  3

 72
    65
 73
     0
 40
0.0
  0
LTYPE
  5
15
330
5
100
AcDbSymbolTableRecord
100
AcDbLinetypeTableRecord
  2
ByLayer
 70
     0
  3

 72
    65
 73
     0
 40
0.0
  0
LTYPE
  5
16
330
5
100
AcDbSymbolTableRecord
100
AcDbLinetypeTableRecord
  2
Continuous
 70
     0
  3
Solid line
 72
    65
 73
     0
 40
0.0
  0
LTYPE
  5
6E
330
5
100
AcDbSymbolTableRecord
100
AcDbLinetypeTableRecord
  2
HIDDEN
 70
     0
  3
Hidden __ __ __ __ __ __ __ __ __ __ __ __ __ __
 72
    65
 73
     2
 40
1.905
 49
1.27
 74
     0
 49
-0.635
 74
     0
  0
LTYPE
  5
6F
330
5
100
AcDbSymbolTableRecord
100
AcDbLinetypeTableRecord
  2
PHANTOM
 70
     0
  3
Phantom ______  __  __  ______  __  __  ______
 72
    65
 73
     6
 40
12.7
 49
6.35
 74
     0
 49
-1.27
 74
     0
 49
1.27
 74
     0
 49
-1.27
 74
     0
 49
1.27
 74
     0
 49
-1.27
 74
     0
  0
LTYPE
  5
70
330
5
100
AcDbSymbolTableRecord
100
AcDbLinetypeTableRecord
  2
CENTER
 70
     0
  3
Center ____ _ ____ _ ____ _ ____ _ ____ _ ____
 72
    65
 73
     4
 40
10.16
 49
6.35
 74
     0
 49
-1.27
 74
     0
 49
1.27
 74
     0
 49
-1.27
 74
     0
  0
LTYPE
  5
71
330
5
100
AcDbSymbolTableRecord
100
AcDbLinetypeTableRecord
  2
CENTERX2
 70
     0
  3
Center (2x) ________  __  ________  __  _____
 72
    65
 73
     4
 40
20.32
 49
12.7
 74
     0
 49
-2.54
 74
     0
 49
2.54
 74
     0
 49
-2.54
 74
     0
  0
LTYPE
  5
72
330
5
100
AcDbSymbolTableRecord
100
AcDbLinetypeTableRecord
  2
DOT2
 70
     0
  3
Dot (.5x) ........................................
 72
    65
 73
     2
 40
0.635
 49
0.0
 74
     0
 49
-0.635
 74
     0
  0
ENDTAB
  0
TABLE
  2
LAYER
  5
2
330
0
100
AcDbSymbolTable
 70
    17
  0
LAYER
  5
10
330
2
100
AcDbSymbolTableRecord
100
AcDbLayerTableRecord
  2
0
 70
     0
 62
     7
  6
Continuous
370
    -3
390
F
  0
LAYER
  5
73
330
2
100
AcDbSymbolTableRecord
100
AcDbLayerTableRecord
  2
FORMAT
 70
     0
 62
     7
  6
Continuous
370
    -3
390
F
  0
LAYER
  5
74
330
2
100
AcDbSymbolTableRecord
100
AcDbLayerTableRecord
  2
YARDIMCI_GEOMETRI
 70
     0
 62
    -6
  6
Continuous
290
     0
370
    -3
390
F
  0
LAYER
  5
75
330
2
100
AcDbSymbolTableRecord
100
AcDbLayerTableRecord
  2
SAYFA_CERCEVESI
 70
     0
 62
     7
  6
Continuous
370
    25
390
F
  0
LAYER
  5
76
330
2
100
AcDbSymbolTableRecord
100
AcDbLayerTableRecord
  2
ANTET
 70
     0
 62
     7
  6
Continuous
370
    -3
390
F
  0
LAYER
  5
77
330
2
100
AcDbSymbolTableRecord
100
AcDbLayerTableRecord
  2
OLCU
 70
     0
 62
   150
  6
Continuous
370
    -3
390
F
  0
LAYER
  5
78
330
2
100
AcDbSymbolTableRecord
100
AcDbLayerTableRecord
  2
METIN
 70
     0
 62
    96
  6
Continuous
370
    -3
390
F
  0
LAYER
  5
79
330
2
100
AcDbSymbolTableRecord
100
AcDbLayerTableRecord
  2
BALON
 70
     0
 62
     5
  6
Continuous
370
    -3
390
F
  0
LAYER
  5
7A
330
2
100
AcDbSymbolTableRecord
100
AcDbLayerTableRecord
  2
VURGU
 70
     0
 62
     7
  6
Continuous
370
    -3
390
F
  0
LAYER
  5
7B
330
2
100
AcDbSymbolTableRecord
100
AcDbLayerTableRecord
  2
SILIK
 70
     0
 62
     7
  6
Continuous
370
    -3
390
F
  0
LAYER
  5
7C
330
2
100
AcDbSymbolTableRecord
100
AcDbLayerTableRecord
  2
MODEL
 70
     0
 62
     7
  6
Continuous
370
    -3
390
F
  0
LAYER
  5
7D
330
2
100
AcDbSymbolTableRecord
100
AcDbLayerTableRecord
  2
DETAYLANDıRMA
 70
     0
 62
   190
  6
Continuous
370
    -3
390
F
  0
LAYER
  5
7E
330
2
100
AcDbSymbolTableRecord
100
AcDbLayerTableRecord
  2
TOLERANS
 70
     0
 62
   230
  6
Continuous
370
    -3
390
F
  0
LAYER
  5
7F
330
2
100
AcDbSymbolTableRecord
100
AcDbLayerTableRecord
  2
MERKEZ_CIZGILERI
 70
     0
 62
    30
  6
Continuous
370
    -3
390
F
  0
LAYER
  5
80
330
2
100
AcDbSymbolTableRecord
100
AcDbLayerTableRecord
  2
KESIT-DETAY_CIZGILERI
 70
     0
 62
     7
  6
Continuous
370
    -3
390
F
  0
LAYER
  5
81
330
2
100
AcDbSymbolTableRecord
100
AcDbLayerTableRecord
  2
\U+041E\U+0421\U+0415\U+0412\U+042B\U+0415
 70
     0
 62
     7
  6
Continuous
370
    -3
390
F
  0
LAYER
  5
82
330
2
100
AcDbSymbolTableRecord
100
AcDbLayerTableRecord
  2
\U+0412\U+041E\U+0414\U+042F\U+041D\U+042B\U+0415_\U+0417\U+041D\U+0410\U+041A\U+0418
 70
     0
 62
    11
  6
Continuous
370
    -3
390
F
  0
ENDTAB
  0
TABLE
  2
STYLE
  5
3
330
0
100
AcDbSymbolTable
 70
     1
  0
STYLE
  5
11
330
3
100
AcDbSymbolTableRecord
100
AcDbTextStyleTableRecord
  2
Standard
 70
     0
 40
0.0
 41
1.0
 50
0.0
 71
     0
 42
3.5
  3
txt
  4

  0
ENDTAB
  0
TABLE
  2
VIEW
  5
6
330
0
100
AcDbSymbolTable
 70
     0
  0
ENDTAB
  0
TABLE
  2
UCS
  5
7
330
0
100
AcDbSymbolTable
 70
     0
  0
ENDTAB
  0
TABLE
  2
APPID
  5
9
330
0
100
AcDbSymbolTable
 70
     1
  0
APPID
  5
12
330
9
100
AcDbSymbolTableRecord
100
AcDbRegAppTableRecord
  2
ACAD
 70
     0
  0
ENDTAB
  0
TABLE
  2
DIMSTYLE
  5
A
330
0
100
AcDbSymbolTable
 70
     1
100
AcDbDimStyleTable
  0
DIMSTYLE
105
27
330
A
100
AcDbSymbolTableRecord
100
AcDbDimStyleTableRecord
  2
ISO-25
 70
     0
 41
2.5
 42
0.625
 43
3.75
 44
1.25
 73
     0
 74
     0
 77
     1
 78
     8
140
2.5
141
2.5
143
0.0393700787
147
0.625
171
     3
172
     1
178
     0
271
     2
272
     2
274
     3
278
    44
283
     0
284
     8
340
11
  0
ENDTAB
  0
TABLE
  2
BLOCK_RECORD
  5
1
330
0
100
AcDbSymbolTable
 70
     2
  0
BLOCK_RECORD
  5
1F
330
1
100
AcDbSymbolTableRecord
100
AcDbBlockTableRecord
  2
*Model_Space
340
22
  0
BLOCK_RECORD
  5
1B
330
1
100
AcDbSymbolTableRecord
100
AcDbBlockTableRecord
  2
*Paper_Space
340
1E
  0
BLOCK_RECORD
  5
23
330
1
100
AcDbSymbolTableRecord
100
AcDbBlockTableRecord
  2
*Paper_Space0
340
26
  0
BLOCK_RECORD
  5
88
330
1
100
AcDbSymbolTableRecord
100
AcDbBlockTableRecord
  2
SW_CENTERMARKSYMBOL_0
340
0
102
{BLKREFS
331
93
102
}
  0
ENDTAB
  0
ENDSEC
  0
SECTION
  2
BLOCKS
  0
BLOCK
  5
20
330
1F
100
AcDbEntity
  8
0
100
AcDbBlockBegin
  2
*Model_Space
 70
     0
 10
0.0
 20
0.0
 30
0.0
  3
*Model_Space
  1

  0
ENDBLK
  5
21
330
1F
100
AcDbEntity
  8
0
100
AcDbBlockEnd
  0
BLOCK
  5
1C
330
1B
100
AcDbEntity
 67
     1
  8
0
100
AcDbBlockBegin
  2
*Paper_Space
 70
     0
 10
0.0
 20
0.0
 30
0.0
  3
*Paper_Space
  1

  0
ENDBLK
  5
1D
330
1B
100
AcDbEntity
 67
     1
  8
0
100
AcDbBlockEnd
  0
BLOCK
  5
24
330
23
100
AcDbEntity
  8
0
100
AcDbBlockBegin
  2
*Paper_Space0
 70
     0
 10
0.0
 20
0.0
 30
0.0
  3
*Paper_Space0
  1

  0
ENDBLK
  5
25
330
23
100
AcDbEntity
  8
0
100
AcDbBlockEnd
  0
BLOCK
  5
89
330
88
100
AcDbEntity
  8
0
100
AcDbBlockBegin
  2
SW_CENTERMARKSYMBOL_0
 70
     0
 10
0.0
 20
0.0
 30
0.0
  3
SW_CENTERMARKSYMBOL_0
  1

  0
LINE
  5
8B
330
88
100
AcDbEntity
  8
FORMAT
 62
     0
100
AcDbLine
 10
0.0
 20
0.0
 30
0.0
 11
0.0
 21
2.5
 31
0.0
  0
LINE
  5
8C
330
88
100
AcDbEntity
  8
FORMAT
 62
     0
100
AcDbLine
 10
0.0
 20
0.0
 30
0.0
 11
-2.5
 21
0.0
 31
0.0
  0
LINE
  5
8D
330
88
100
AcDbEntity
  8
FORMAT
 62
     0
100
AcDbLine
 10
0.0
 20
0.0
 30
0.0
 11
0.0
 21
-2.5
 31
0.0
  0
LINE
  5
8E
330
88
100
AcDbEntity
  8
FORMAT
 62
     0
100
AcDbLine
 10
0.0
 20
0.0
 30
0.0
 11
2.5
 21
0.0
 31
0.0
  0
LINE
  5
8F
330
88
100
AcDbEntity
  8
FORMAT
 62
     0
100
AcDbLine
 10
0.0
 20
5.0
 30
0.0
 11
0.0
 21
92.5
 31
0.0
  0
LINE
  5
90
330
88
100
AcDbEntity
  8
FORMAT
 62
     0
100
AcDbLine
 10
-5.0
 20
0.0
 30
0.0
 11
-92.5
 21
0.0
 31
0.0
  0
LINE
  5
91
330
88
100
AcDbEntity
  8
FORMAT
 62
     0
100
AcDbLine
 10
0.0
 20
-5.0
 30
0.0
 11
0.0
 21
-92.5
 31
0.0
  0
LINE
  5
92
330
88
100
AcDbEntity
  8
FORMAT
 62
     0
100
AcDbLine
 10
5.0
 20
0.0
 30
0.0
 11
92.5
 21
0.0
 31
0.0
  0
ENDBLK
  5
8A
330
88
100
AcDbEntity
  8
0
100
AcDbBlockEnd
  0
ENDSEC
  0
SECTION
  2
ENTITIES
  0
CIRCLE
  5
83
330
1F
100
AcDbEntity
  8
0
  6
Continuous
 62
     7
370
    25
100
AcDbCircle
 10
135.7204942573
 20
109.882282191
 30
0.0
 40
89.99999999999999
  0
CIRCLE
  5
84
330
1F
100
AcDbEntity
  8
0
  6
Continuous
 62
     7
370
    25
100
AcDbCircle
 10
135.7204942573
 20
109.882282191
 30
0.0
 40
79.29999999999998
  0
CIRCLE
  5
85
330
1F
100
AcDbEntity
  8
0
  6
Continuous
 62
     7
370
    25
100
AcDbCircle
 10
135.7204942573
 20
109.882282191
 30
0.0
 40
79.21003223490321
  0
CIRCLE
  5
86
330
1F
100
AcDbEntity
  8
0
  6
Continuous
 62
     7
370
    25
100
AcDbCircle
 10
135.7204942573
 20
109.882282191
 30
0.0
 40
70.58996776509679
  0
CIRCLE
  5
87
330
1F
100
AcDbEntity
  8
0
  6
Continuous
 62
     7
370
    25
100
AcDbCircle
 10
135.7204942573
 20
109.882282191
 30
0.0
 40
70.50000000000001
  0
INSERT
  5
93
330
1F
100
AcDbEntity
  8
FORMAT
 62
     7
100
AcDbBlockReference
  2
SW_CENTERMARKSYMBOL_0
 10
135.7204942573
 20
109.882282191
 30
0.0
  0
LINE
  5
94
330
1F
100
AcDbEntity
  8
0
  6
Continuous
 62
     7
370
    25
100
AcDbLine
 10
-210.1428308706
 20
199.8822857673
 30
0.0
 11
-314.9522752683
 21
199.8822857673
 31
0.0
  0
LINE
  5
95
330
1F
100
AcDbEntity
  8
0
  6
Continuous
 62
     7
370
    25
100
AcDbLine
 10
-314.9522752683
 20
19.8822786147
 30
0.0
 11
-210.1428308706
 21
19.8822786147
 31
0.0
  0
ARC
  5
96
330
1F
100
AcDbEntity
  8
0
  6
Continuous
 62
     7
370
    25
100
AcDbCircle
 10
-210.1428300756
 20
197.882282191
 30
0.0
 40
1.999999999999972
100
AcDbArc
 50
79.1144729453
 51
90.0
  0
ARC
  5
97
330
1F
100
AcDbEntity
  8
0
  6
Continuous
 62
     7
370
    25
100
AcDbCircle
 10
-210.1428300756
 20
21.882282191
 30
0.0
 40
1.999999999999995
100
AcDbArc
 50
270.0
 51
280.8855270547
  0
LINE
  5
98
330
1F
100
AcDbEntity
  8
0
  6
Continuous
 62
     7
370
    25
100
AcDbLine
 10
-209.7651348631
 20
19.9182723696
 30
0.0
 11
-158.139400668
 21
29.8462976749
 31
0.0
  0
LINE
  5
99
330
1F
100
AcDbEntity
  8
0
  6
Continuous
 62
     7
370
    25
100
AcDbLine
 10
-158.139400668
 20
189.9182667072
 30
0.0
 11
-209.7651348631
 21
199.8462920124
 31
0.0
  0
ARC
  5
9A
330
1F
100
AcDbEntity
  8
0
  6
Continuous
 62
     7
370
    25
100
AcDbCircle
 10
-157.7617064038
 20
191.882282191
 30
0.0
 40
2.000000000000006
100
AcDbArc
 50
259.1144729453
 51
270.0
  0
ARC
  5
9B
330
1F
100
AcDbEntity
  8
0
  6
Continuous
 62
     7
370
    25
100
AcDbCircle
 10
-157.7617064038
 20
27.882282191
 30
0.0
 40
2.000000000000002
100
AcDbArc
 50
90.0
 51
100.8855270547
  0
LINE
  5
9C
330
1F
100
AcDbEntity
  8
0
  6
Continuous
 62
     7
370
    25
100
AcDbLine
 10
-59.9522651355
 20
189.8822804029
 30
0.0
 11
-157.7617065231
 21
189.8822804029
 31
0.0
  0
LINE
  5
9D
330
1F
100
AcDbEntity
  8
0
  6
Continuous
 62
     7
370
    25
100
AcDbLine
 10
-157.7617065231
 20
29.8822839792
 30
0.0
 11
-59.9522651355
 21
29.8822839792
 31
0.0
  0
LINE
  5
9E
330
1F
100
AcDbEntity
  8
0
  6
Continuous
 62
     7
370
    25
100
AcDbLine
 10
-314.9522752683
 20
199.8822857673
 30
0.0
 11
-314.9522752683
 21
19.8822786147
 31
0.0
  0
LINE
  5
9F
330
1F
100
AcDbEntity
  8
0
  6
Continuous
 62
     7
370
    25
100
AcDbLine
 10
-59.9522651355
 20
189.8822804029
 30
0.0
 11
-59.9522651355
 21
29.8822839792
 31
0.0
  0
LINE
  5
A0
330
1F
100
AcDbEntity
  8
0
  6
Continuous
 62
     1
370
    25
100
AcDbLine
 10
-210.1428308706
 20
199.8822857673
 30
0.0
 11
-210.1428308706
 21
19.8822786147
 31
0.0
  0
LINE
  5
A1
330
1F
100
AcDbEntity
  8
0
  6
Continuous
 62
     1
370
    25
100
AcDbLine
 10
-209.7651348631
 20
199.8462920124
 30
0.0
 11
-209.7651348631
 21
19.9182723696
 31
0.0
  0
LINE
  5
A2
330
1F
100
AcDbEntity
  8
0
  6
Continuous
 62
     1
370
    25
100
AcDbLine
 10
-158.139400668
 20
189.9182667072
 30
0.0
 11
-158.139400668
 21
29.8462976749
 31
0.0
  0
LINE
  5
A3
330
1F
100
AcDbEntity
  8
0
  6
Continuous
 62
     1
370
    25
100
AcDbLine
 10
-157.7617065231
 20
189.8822804029
 30
0.0
 11
-157.7617065231
 21
29.8822839792
 31
0.0
  0
LINE
  5
A4
330
1F
100
AcDbEntity
  8
0
  6
Continuous
 62
     7
370
    25
100
AcDbLine
 10
225.7204978336
 20
435.1040308486
 30
0.0
 11
225.7204978336
 21
539.9134752463
 31
0.0
  0
LINE
  5
A5
330
1F
100
AcDbEntity
  8
0
  6
Continuous
 62
     7
370
    25
100
AcDbLine
 10
45.720490681
 20
539.9134752463
 30
0.0
 11
45.720490681
 21
435.1040308486
 31
0.0
  0
ARC
  5
A6
330
1F
100
AcDbEntity
  8
0
  6
Continuous
 62
     7
370
    25
100
AcDbCircle
 10
223.7204942573
 20
435.1040300536
 30
0.0
 40
2.0
100
AcDbArc
 50
349.1144729453
 51
0.0
  0
ARC
  5
A7
330
1F
100
AcDbEntity
  8
0
  6
Continuous
 62
     7
370
    25
100
AcDbCircle
 10
47.7204942573
 20
435.1040300536
 30
0.0
 40
2.0
100
AcDbArc
 50
180.0
 51
190.8855270547
  0
LINE
  5
A8
330
1F
100
AcDbEntity
  8
0
  6
Continuous
 62
     7
370
    25
100
AcDbLine
 10
45.7564844359
 20
434.7263348411
 30
0.0
 11
55.6845097412
 21
383.100600646
 31
0.0
  0
LINE
  5
A9
330
1F
100
AcDbEntity
  8
0
  6
Continuous
 62
     7
370
    25
100
AcDbLine
 10
215.7564787735
 20
383.100600646
 30
0.0
 11
225.6845040787
 21
434.7263348411
 31
0.0
  0
ARC
  5
AA
330
1F
100
AcDbEntity
  8
0
  6
Continuous
 62
     7
370
    25
100
AcDbCircle
 10
217.7204942573
 20
382.7229063818
 30
0.0
 40
2.0
100
AcDbArc
 50
169.1144729453
 51
180.0
  0
ARC
  5
AB
330
1F
100
AcDbEntity
  8
0
  6
Continuous
 62
     7
370
    25
100
AcDbCircle
 10
53.7204942573
 20
382.7229063818
 30
0.0
 40
2.0
100
AcDbArc
 50
0.0
 51
10.8855270547
  0
LINE
  5
AC
330
1F
100
AcDbEntity
  8
0
  6
Continuous
 62
     7
370
    25
100
AcDbLine
 10
215.7204924692
 20
284.9134651135
 30
0.0
 11
215.7204924692
 21
382.7229065011
 31
0.0
  0
LINE
  5
AD
330
1F
100
AcDbEntity
  8
0
  6
Continuous
 62
     7
370
    25
100
AcDbLine
 10
55.7204960455
 20
382.7229065011
 30
0.0
 11
55.7204960455
 21
284.9134651135
 31
0.0
  0
LINE
  5
AE
330
1F
100
AcDbEntity
  8
0
  6
Continuous
 62
     7
370
    25
100
AcDbLine
 10
225.7204978336
 20
539.9134752463
 30
0.0
 11
45.720490681
 21
539.9134752463
 31
0.0
  0
LINE
  5
AF
330
1F
100
AcDbEntity
  8
0
  6
Continuous
 62
     7
370
    25
100
AcDbLine
 10
215.7204924692
 20
284.9134651135
 30
0.0
 11
55.7204960455
 21
284.9134651135
 31
0.0
  0
LINE
  5
B0
330
1F
100
AcDbEntity
  8
0
  6
Continuous
 62
     1
370
    25
100
AcDbLine
 10
225.7204978336
 20
435.1040308486
 30
0.0
 11
45.720490681
 21
435.1040308486
 31
0.0
  0
LINE
  5
B1
330
1F
100
AcDbEntity
  8
0
  6
Continuous
 62
     1
370
    25
100
AcDbLine
 10
225.6845040787
 20
434.7263348411
 30
0.0
 11
45.7564844359
 21
434.7263348411
 31
0.0
  0
LINE
  5
B2
330
1F
100
AcDbEntity
  8
0
  6
Continuous
 62
     1
370
    25
100
AcDbLine
 10
215.7564787735
 20
383.100600646
 30
0.0
 11
55.6845097412
 21
383.100600646
 31
0.0
  0
LINE
  5
B3
330
1F
100
AcDbEntity
  8
0
  6
Continuous
 62
     1
370
    25
100
AcDbLine
 10
215.7204924692
 20
382.7229065011
 30
0.0
 11
55.7204960455
 21
382.7229065011
 31
0.0
  0
LINE
  5
B4
330
1F
100
AcDbEntity
  8
0
  6
Continuous
 62
     7
370
    25
100
AcDbLine
 10
454.8389976507
 20
19.8822786147
 30
0.0
 11
559.6484420484
 21
19.8822786147
 31
0.0
  0
LINE
  5
B5
330
1F
100
AcDbEntity
  8
0
  6
Continuous
 62
     7
370
    25
100
AcDbLine
 10
559.6484420484
 20
199.8822857673
 30
0.0
 11
454.8389976507
 21
199.8822857673
 31
0.0
  0
ARC
  5
B6
330
1F
100
AcDbEntity
  8
0
  6
Continuous
 62
     7
370
    25
100
AcDbCircle
 10
454.8389968557
 20
21.882282191
 30
0.0
 40
2.0
100
AcDbArc
 50
259.1144729453
 51
270.0
  0
ARC
  5
B7
330
1F
100
AcDbEntity
  8
0
  6
Continuous
 62
     7
370
    25
100
AcDbCircle
 10
454.8389968557
 20
197.882282191
 30
0.0
 40
1.999999999999973
100
AcDbArc
 50
90.0
 51
100.8855270547
  0
LINE
  5
B8
330
1F
100
AcDbEntity
  8
0
  6
Continuous
 62
     7
370
    25
100
AcDbLine
 10
454.4613016432
 20
199.8462920124
 30
0.0
 11
402.8355674481
 21
189.9182667072
 31
0.0
  0
LINE
  5
B9
330
1F
100
AcDbEntity
  8
0
  6
Continuous
 62
     7
370
    25
100
AcDbLine
 10
402.8355674481
 20
29.8462976749
 30
0.0
 11
454.4613016432
 21
19.9182723696
 31
0.0
  0
ARC
  5
BA
330
1F
100
AcDbEntity
  8
0
  6
Continuous
 62
     7
370
    25
100
AcDbCircle
 10
402.4578731839
 20
27.882282191
 30
0.0
 40
1.999999999999997
100
AcDbArc
 50
79.1144729453
 51
90.0
  0
ARC
  5
BB
330
1F
100
AcDbEntity
  8
0
  6
Continuous
 62
     7
370
    25
100
AcDbCircle
 10
402.4578731839
 20
191.882282191
 30
0.0
 40
2.0
100
AcDbArc
 50
270.0
 51
280.8855270547
  0
LINE
  5
BC
330
1F
100
AcDbEntity
  8
0
  6
Continuous
 62
     7
370
    25
100
AcDbLine
 10
304.6484319156
 20
29.8822839792
 30
0.0
 11
402.4578733032
 21
29.8822839792
 31
0.0
  0
LINE
  5
BD
330
1F
100
AcDbEntity
  8
0
  6
Continuous
 62
     7
370
    25
100
AcDbLine
 10
402.4578733032
 20
189.8822804029
 30
0.0
 11
304.6484319156
 21
189.8822804029
 31
0.0
  0
LINE
  5
BE
330
1F
100
AcDbEntity
  8
0
  6
Continuous
 62
     7
370
    25
100
AcDbLine
 10
559.6484420484
 20
109.882282191
 30
0.0
 11
559.6484420484
 21
199.8822857673
 31
0.0
  0
LINE
  5
BF
330
1F
100
AcDbEntity
  8
0
  6
Continuous
 62
     7
370
    25
100
AcDbLine
 10
559.6484420484
 20
19.8822786147
 30
0.0
 11
559.6484420484
 21
109.882282191
 31
0.0
  0
LINE
  5
C0
330
1F
100
AcDbEntity
  8
0
  6
Continuous
 62
     7
370
    25
100
AcDbLine
 10
304.6484319156
 20
109.882282191
 30
0.0
 11
304.6484319156
 21
189.8822804029
 31
0.0
  0
LINE
  5
C1
330
1F
100
AcDbEntity
  8
0
  6
Continuous
 62
     7
370
    25
100
AcDbLine
 10
304.6484319156
 20
29.8822839792
 30
0.0
 11
304.6484319156
 21
109.882282191
 31
0.0
  0
LINE
  5
C2
330
1F
100
AcDbEntity
  8
0
  6
Continuous
 62
     1
370
    25
100
AcDbLine
 10
454.8389976507
 20
109.882282191
 30
0.0
 11
454.8389976507
 21
199.8822857673
 31
0.0
  0
LINE
  5
C3
330
1F
100
AcDbEntity
  8
0
  6
Continuous
 62
     1
370
    25
100
AcDbLine
 10
454.8389976507
 20
19.8822786147
 30
0.0
 11
454.8389976507
 21
109.882282191
 31
0.0
  0
LINE
  5
C4
330
1F
100
AcDbEntity
  8
0
  6
Continuous
 62
     1
370
    25
100
AcDbLine
 10
454.4613016432
 20
109.882282191
 30
0.0
 11
454.4613016432
 21
199.8462920124
 31
0.0
  0
LINE
  5
C5
330
1F
100
AcDbEntity
  8
0
  6
Continuous
 62
     1
370
    25
100
AcDbLine
 10
454.4613016432
 20
19.9182723696
 30
0.0
 11
454.4613016432
 21
109.882282191
 31
0.0
  0
LINE
  5
C6
330
1F
100
AcDbEntity
  8
0
  6
Continuous
 62
     1
370
    25
100
AcDbLine
 10
402.8355674481
 20
109.882282191
 30
0.0
 11
402.8355674481
 21
189.9182667072
 31
0.0
  0
LINE
  5
C7
330
1F
100
AcDbEntity
  8
0
  6
Continuous
 62
     1
370
    25
100
AcDbLine
 10
402.8355674481
 20
29.8462976749
 30
0.0
 11
402.8355674481
 21
109.882282191
 31
0.0
  0
LINE
  5
C8
330
1F
100
AcDbEntity
  8
0
  6
Continuous
 62
     1
370
    25
100
AcDbLine
 10
402.4578733032
 20
109.882282191
 30
0.0
 11
402.4578733032
 21
189.8822804029
 31
0.0
  0
LINE
  5
C9
330
1F
100
AcDbEntity
  8
0
  6
Continuous
 62
     1
370
    25
100
AcDbLine
 10
402.4578733032
 20
29.8822839792
 30
0.0
 11
402.4578733032
 21
109.882282191
 31
0.0
  0
LINE
  5
CA
330
1F
100
AcDbEntity
  8
0
  6
Continuous
 62
     7
370
    25
100
AcDbLine
 10
45.720490681
 20
-223.8820633151
 30
0.0
 11
45.720490681
 21
-328.6915077128
 31
0.0
  0
LINE
  5
CB
330
1F
100
AcDbEntity
  8
0
  6
Continuous
 62
     7
370
    25
100
AcDbLine
 10
225.7204978336
 20
-328.6915077128
 30
0.0
 11
225.7204978336
 21
-223.8820633151
 31
0.0
  0
ARC
  5
CC
330
1F
100
AcDbEntity
  8
0
  6
Continuous
 62
     7
370
    25
100
AcDbCircle
 10
47.7204942573
 20
-223.8820625201
 30
0.0
 40
2.0
100
AcDbArc
 50
169.1144729453
 51
180.0
  0
ARC
  5
CD
330
1F
100
AcDbEntity
  8
0
  6
Continuous
 62
     7
370
    25
100
AcDbCircle
 10
223.7204942573
 20
-223.8820625201
 30
0.0
 40
2.0
100
AcDbArc
 50
0.0
 51
10.8855270547
  0
LINE
  5
CE
330
1F
100
AcDbEntity
  8
0
  6
Continuous
 62
     7
370
    25
100
AcDbLine
 10
225.6845040787
 20
-223.5043673076
 30
0.0
 11
215.7564787735
 21
-171.8786331125
 31
0.0
  0
LINE
  5
CF
330
1F
100
AcDbEntity
  8
0
  6
Continuous
 62
     7
370
    25
100
AcDbLine
 10
55.6845097412
 20
-171.8786331125
 30
0.0
 11
45.7564844359
 21
-223.5043673076
 31
0.0
  0
ARC
  5
D0
330
1F
100
AcDbEntity
  8
0
  6
Continuous
 62
     7
370
    25
100
AcDbCircle
 10
53.7204942573
 20
-171.5009388483
 30
0.0
 40
2.000000000000006
100
AcDbArc
 50
349.1144729453
 51
0.0
  0
ARC
  5
D1
330
1F
100
AcDbEntity
  8
0
  6
Continuous
 62
     7
370
    25
100
AcDbCircle
 10
217.7204942573
 20
-171.5009388483
 30
0.0
 40
2.000000000000006
100
AcDbArc
 50
180.0
 51
190.8855270547
  0
LINE
  5
D2
330
1F
100
AcDbEntity
  8
0
  6
Continuous
 62
     7
370
    25
100
AcDbLine
 10
55.7204960455
 20
-73.69149758
 30
0.0
 11
55.7204960455
 21
-171.5009389677
 31
0.0
  0
LINE
  5
D3
330
1F
100
AcDbEntity
  8
0
  6
Continuous
 62
     7
370
    25
100
AcDbLine
 10
215.7204924692
 20
-171.5009389677
 30
0.0
 11
215.7204924692
 21
-73.69149758
 31
0.0
  0
LINE
  5
D4
330
1F
100
AcDbEntity
  8
0
  6
Continuous
 62
     7
370
    25
100
AcDbLine
 10
45.720490681
 20
-328.6915077128
 30
0.0
 11
225.7204978336
 21
-328.6915077128
 31
0.0
  0
LINE
  5
D5
330
1F
100
AcDbEntity
  8
0
  6
Continuous
 62
     7
370
    25
100
AcDbLine
 10
55.7204960455
 20
-73.69149758
 30
0.0
 11
215.7204924692
 21
-73.69149758
 31
0.0
  0
LINE
  5
D6
330
1F
100
AcDbEntity
  8
0
  6
Continuous
 62
     1
370
    25
100
AcDbLine
 10
45.720490681
 20
-223.8820633151
 30
0.0
 11
225.7204978336
 21
-223.8820633151
 31
0.0
  0
LINE
  5
D7
330
1F
100
AcDbEntity
  8
0
  6
Continuous
 62
     1
370
    25
100
AcDbLine
 10
45.7564844359
 20
-223.5043673076
 30
0.0
 11
225.6845040787
 21
-223.5043673076
 31
0.0
  0
LINE
  5
D8
330
1F
100
AcDbEntity
  8
0
  6
Continuous
 62
     1
370
    25
100
AcDbLine
 10
55.6845097412
 20
-171.8786331125
 30
0.0
 11
215.7564787735
 21
-171.8786331125
 31
0.0
  0
LINE
  5
D9
330
1F
100
AcDbEntity
  8
0
  6
Continuous
 62
     1
370
    25
100
AcDbLine
 10
55.7204960455
 20
-171.5009389677
 30
0.0
 11
215.7204924692
 21
-171.5009389677
 31
0.0
  0
LINE
  5
DA
330
1F
100
AcDbEntity
  8
0
  6
Continuous
 62
     7
370
    25
100
AcDbLine
 10
468.0600681843
 20
-107.9921609874
 30
0.0
 11
393.9485993183
 21
-65.2085206864
 31
0.0
  0
LINE
  5
DB
330
1F
100
AcDbEntity
  8
0
  6
Continuous
 62
     7
370
    25
100
AcDbLine
 10
303.955910808
 20
-221.0973173984
 30
0.0
 11
378.067379674
 21
-263.8809576994
 31
0.0
  0
LINE
  5
DC
330
1F
100
AcDbEntity
  8
0
  6
Continuous
 62
     7
370
    25
100
AcDbLine
 10
384.8880436812
 20
-266.8118346791
 30
0.0
 11
425.6353204765
 21
-278.9776486376
 31
0.0
  0
LINE
  5
DD
330
1F
100
AcDbEntity
  8
0
  6
Continuous
 62
     7
370
    25
100
AcDbLine
 10
504.9213133507
 20
-141.6354003161
 30
0.0
 11
474.0090299972
 21
-112.4330316705
 31
0.0
  0
LINE
  5
DE
330
1F
100
AcDbEntity
  8
0
  6
Continuous
 62
     7
370
    25
100
AcDbLine
 10
569.2612395382
 20
-177.9610504899
 30
0.0
 11
502.6975494758
 21
-139.5346501458
 31
0.0
  0
LINE
  5
DF
330
1F
100
AcDbEntity
  8
0
  6
Continuous
 62
     7
370
    25
100
AcDbLine
 10
422.7040532607
 20
-278.102464038
 30
0.0
 11
489.2677433232
 21
-316.5288643822
 31
0.0
  0
LWPOLYLINE
  5
E0
330
1F
100
AcDbEntity
  8
0
  6
Continuous
 62
     7
370
    25
100
AcDbPolyline
 90
      121
 70
   128
 43
0.0
 10
285.3126422276
 20
-179.8912855343
 10
285.3998598622
 20
-175.9948358574
 10
285.6612704217
 20
-172.0083690425
 10
286.0961521414
 20
-167.9428132538
 10
286.7033249094
 20
-163.8093065004
 10
287.4811133885
 20
-159.6191848453
 10
288.4273891629
 20
-155.383931839
 10
289.5395602014
 20
-151.115151902
 10
290.8145761259
 20
-146.8245513137
 10
292.2489492845
 20
-142.5238819405
 10
293.8387336787
 20
-138.2249397125
 10
295.579588183
 20
-133.9395053133
 10
297.4667291302
 20
-129.6793228831
 10
299.4949882629
 20
-125.4560696051
 10
301.6588074654
 20
-121.2813252866
 10
303.9522545689
 20
-117.1665267328
 10
306.3690444246
 20
-113.1229555816
 10
308.9025494405
 20
-109.161695718
 10
311.5458311917
 20
-105.2936028592
 10
314.2916404203
 20
-101.5292802197
 10
317.1324486454
 20
-97.8790420116
 10
320.0604771393
 20
-94.3529028013
 10
323.0676942932
 20
-90.9605121093
 10
326.1458577641
 20
-87.7111848326
 10
329.2865342309
 20
-84.6138168352
 10
332.4811112486
 20
-81.6769024399
 10
335.7208354436
 20
-78.9084880438
 10
338.9968263432
 20
-76.3161580505
 10
342.300104693
 20
-73.907030691
 10
345.6216151768
 20
-71.6876962376
 10
348.9522550632
 20
-69.6642430525
 10
352.2828949495
 20
-67.8422212781
 10
355.6044054333
 20
-66.2266213558
 10
358.9076837831
 20
-64.8218647134
 10
362.1836746827
 20
-63.6318161241
 10
365.4233988777
 20
-62.6597245836
 10
368.6179758954
 20
-61.9082588636
 10
371.7586523623
 20
-61.3794789972
 10
374.8368158331
 20
-61.0748343789
 10
377.844032987
 20
-60.9951660498
 10
380.772061481
 20
-61.1406755197
 10
383.6128697061
 20
-61.5109863663
 10
386.3586789346
 20
-62.1050651511
 10
389.0019606859
 20
-62.9212898607
 10
391.5354657018
 20
-63.9574270959
 10
393.9522555574
 20
-65.2106320745
 10
396.2457026609
 20
-66.6774729659
 10
398.4095218635
 20
-68.3539248108
 10
400.4377809961
 20
-70.2353999404
 10
402.3249219433
 20
-72.3167358111
 10
404.0657764476
 20
-74.5922223825
 10
405.6555608418
 20
-77.0556386192
 10
407.0899340005
 20
-79.7002159944
 10
408.3649499249
 20
-82.5187145308
 10
409.4771209634
 20
-85.5034091194
 10
410.4233967378
 20
-88.646115372
 10
411.2011852169
 20
-91.9382215639
 10
411.8083579849
 20
-95.3707015612
 10
412.2432397046
 20
-98.9341536039
 10
412.5046502641
 20
-102.6188022111
 10
412.5918678988
 20
-106.4145525505
 10
412.5046502641
 20
-110.3110022274
 10
412.2432397046
 20
-114.2974690423
 10
411.8083579849
 20
-118.363024831
 10
411.2011852169
 20
-122.4965315844
 10
410.4233967378
 20
-126.6866532395
 10
409.4771209634
 20
-130.9219062458
 10
408.3649499249
 20
-135.1906861828
 10
407.0899340005
 20
-139.4812867711
 10
405.6555608418
 20
-143.7819561443
 10
404.0657764476
 20
-148.0808983723
 10
402.3249219433
 20
-152.3663327715
 10
400.4377809961
 20
-156.6265152017
 10
398.4095218635
 20
-160.8497684797
 10
396.2457026609
 20
-165.0245127982
 10
393.9522555574
 20
-169.139311352
 10
391.5354657018
 20
-173.1828825033
 10
389.0019606859
 20
-177.1441423668
 10
386.3586789346
 20
-181.0122352256
 10
383.6128697061
 20
-184.7765578651
 10
380.772061481
 20
-188.4267960732
 10
377.844032987
 20
-191.9529352835
 10
374.8368158331
 20
-195.3453259755
 10
371.7586523623
 20
-198.5946532522
 10
368.6179758954
 20
-201.6920212496
 10
365.4233988777
 20
-204.6289356449
 10
362.1836746827
 20
-207.3973500411
 10
358.9076837831
 20
-209.9896800343
 10
355.6044054333
 20
-212.3988073938
 10
352.2828949495
 20
-214.6181418472
 10
348.9522550632
 20
-216.6415950323
 10
345.6216151768
 20
-218.4636168067
 10
342.300104693
 20
-220.079216729
 10
338.9968263432
 20
-221.4839733714
 10
335.7208354436
 20
-222.6740219607
 10
332.4811112486
 20
-223.6461135012
 10
329.2865342309
 20
-224.3975792212
 10
326.1458577641
 20
-224.9263590876
 10
323.0676942932
 20
-225.2310037059
 10
320.0604771393
 20
-225.310672035
 10
317.1324486454
 20
-225.1651625651
 10
314.2916404203
 20
-224.7948517185
 10
311.5458311917
 20
-224.2007729337
 10
308.9025494405
 20
-223.3845482241
 10
306.3690444246
 20
-222.3484109889
 10
303.9522545689
 20
-221.0952060103
 10
301.6588074654
 20
-219.6283651189
 10
299.4949882629
 20
-217.951913274
 10
297.4667291302
 20
-216.0704381444
 10
295.579588183
 20
-213.9891022737
 10
293.8387336787
 20
-211.7136157024
 10
292.2489492845
 20
-209.2501994656
 10
290.8145761259
 20
-206.6056220904
 10
289.5395602014
 20
-203.787123554
 10
288.4273891629
 20
-200.8024289655
 10
287.4811133885
 20
-197.6597227128
 10
286.7033249094
 20
-194.3676165209
 10
286.0961521414
 20
-190.9351365237
 10
285.6612704217
 20
-187.3716844809
 10
285.3998598622
 20
-183.6870358737
 10
285.3126422276
 20
-179.8912855343
  0
LWPOLYLINE
  5
E1
330
1F
100
AcDbEntity
  8
0
  6
Continuous
 62
     7
370
    25
100
AcDbPolyline
 90
      113
 70
   128
 43
0.0
 10
292.8786864216
 20
-175.523501192
 10
292.9668997755
 20
-171.8419207787
 10
293.2312658828
 20
-168.0700724585
 10
293.6709523432
 20
-164.2198254581
 10
294.2845683106
 20
-160.3032968628
 10
295.0701908352
 20
-156.3328067513
 10
296.025349058
 20
-152.3208447345
 10
297.1470347475
 20
-148.2800387767
 10
298.4317181053
 20
-144.2230989235
 10
299.875353034
 20
-140.16279753
 10
301.4734087472
 20
-136.1119008221
 10
303.2208486966
 20
-132.083156727
 10
305.1121753526
 20
-128.0892416454
 10
307.1414381071
 20
-124.1427254704
 10
309.3022543467
 20
-120.2560198785
 10
311.5878252579
 20
-116.4413570377
 10
313.9909569004
 20
-112.7107409403
 10
316.5040918176
 20
-109.0759048196
 10
319.1193195728
 20
-105.5482868159
 10
321.8284109938
 20
-102.1389858737
 10
324.6228445146
 20
-98.8587374083
 10
327.4938298833
 20
-95.7178479089
 10
330.4323292349
 20
-92.7262071079
 10
333.4291005558
 20
-89.8932263873
 10
336.4747121717
 20
-87.2278243313
 10
339.5595835769
 20
-84.7383849048
 10
342.6740071669
 20
-82.4327327403
 10
345.8081851165
 20
-80.3181300994
 10
348.9522550632
 20
-78.4012316281
 10
352.0963250098
 20
-76.6880642071
 10
355.2305029595
 20
-75.1840220124
 10
358.3449265495
 20
-73.8938372394
 10
361.4297979547
 20
-72.8215599547
 10
364.4754095705
 20
-71.9705736875
 10
367.4721808914
 20
-71.3435558891
 10
370.410680243
 20
-70.9424775548
 10
373.2816656117
 20
-70.7685979044
 10
376.0760991326
 20
-70.8224621021
 10
378.7851905535
 20
-71.1039126679
 10
381.4004183087
 20
-71.6120529768
 10
383.9135532259
 20
-72.3452852845
 10
386.3166848685
 20
-73.3013046464
 10
388.6022557796
 20
-74.4771034829
 10
390.7630720192
 20
-75.8689837484
 10
392.7923347737
 20
-77.4725630179
 10
394.6836614298
 20
-79.2827988234
 10
396.4311013792
 20
-81.2939916976
 10
398.0291570924
 20
-83.4998125526
 10
399.472792021
 20
-85.8933285361
 10
400.7574753788
 20
-88.4670045565
 10
401.8791610684
 20
-91.2127397834
 10
402.8343192911
 20
-94.1218995902
 10
403.6199418157
 20
-97.185329242
 10
404.2335577832
 20
-100.3933919214
 10
404.6732442436
 20
-103.7359877403
 10
404.9376103508
 20
-107.20260545
 10
405.0258237048
 20
-110.7823368928
 10
404.9376103508
 20
-114.4639173061
 10
404.6732442436
 20
-118.2357656263
 10
404.2335577832
 20
-122.0860126267
 10
403.6199418157
 20
-126.002541222
 10
402.8343192911
 20
-129.9730313335
 10
401.8791610684
 20
-133.9849933503
 10
400.7574753788
 20
-138.0257993081
 10
399.472792021
 20
-142.0827391613
 10
398.0291570924
 20
-146.1430405548
 10
396.4311013792
 20
-150.1939372627
 10
394.6836614298
 20
-154.2226813578
 10
392.7923347737
 20
-158.2165964394
 10
390.7630720192
 20
-162.1631126144
 10
388.6022557796
 20
-166.0498182063
 10
386.3166848685
 20
-169.8644810471
 10
383.9135532259
 20
-173.5950971445
 10
381.4004183087
 20
-177.2299332653
 10
378.7851905535
 20
-180.7575512689
 10
376.0760991326
 20
-184.1668522111
 10
373.2816656117
 20
-187.4471006765
 10
370.410680243
 20
-190.5879901759
 10
367.4721808914
 20
-193.5796309769
 10
364.4754095705
 20
-196.4126116975
 10
361.4297979547
 20
-199.0780137535
 10
358.3449265495
 20
-201.56745318
 10
355.2305029595
 20
-203.8731053445
 10
352.0963250098
 20
-205.9877079854
 10
348.9522550632
 20
-207.9046064567
 10
345.8081851165
 20
-209.6177738777
 10
342.6740071669
 20
-211.1218160724
 10
339.5595835769
 20
-212.4120008454
 10
336.4747121717
 20
-213.4842781301
 10
333.4291005558
 20
-214.3352643973
 10
330.4323292349
 20
-214.9622821957
 10
327.4938298833
 20
-215.36336053
 10
324.6228445146
 20
-215.5372401804
 10
321.8284109938
 20
-215.4833759827
 10
319.1193195728
 20
-215.2019254169
 10
316.5040918176
 20
-214.693785108
 10
313.9909569004
 20
-213.9605528003
 10
311.5878252579
 20
-213.0045334384
 10
309.3022543467
 20
-211.8287346019
 10
307.1414381071
 20
-210.4368543364
 10
305.1121753526
 20
-208.8332750669
 10
303.2208486966
 20
-207.0230392615
 10
301.4734087472
 20
-205.0118463872
 10
299.875353034
 20
-202.8060255322
 10
298.4317181053
 20
-200.4125095488
 10
297.1470347475
 20
-197.8388335283
 10
296.025349058
 20
-195.0930983014
 10
295.0701908352
 20
-192.1839384947
 10
294.2845683106
 20
-189.1205088428
 10
293.6709523432
 20
-185.9124461634
 10
293.2312658828
 20
-182.5698503445
 10
292.9668997755
 20
-179.1032326348
 10
292.8786864216
 20
-175.523501192
  0
ARC
  5
E2
330
1F
100
AcDbEntity
  8
0
  6
Continuous
 62
     7
370
    25
100
AcDbCircle
 10
452.9686530368
 20
-134.1241760345
 30
0.0
 40
30.1766966645196
100
AcDbArc
 50
51.6923648174
 51
59.9932760785
  0
LWPOLYLINE
  5
E3
330
1F
100
AcDbEntity
  8
0
  6
Continuous
 62
     7
370
    25
100
AcDbPolyline
 90
        3
 70
   128
 43
0.0
 10
382.0272341423
 20
-265.7959558116
 10
380.4805132906
 20
-265.1320512898
 10
378.067379674
 20
-263.8809576994
  0
ARC
  5
E4
330
1F
100
AcDbEntity
  8
0
  6
Continuous
 62
     7
370
    25
100
AcDbCircle
 10
451.9272707312
 20
-135.8749353098
 30
0.0
 40
32.2024011670349
100
AcDbArc
 50
37.3285115998
 51
53.4281782803
  0
ARC
  5
E5
330
1F
100
AcDbEntity
  8
0
  6
Continuous
 62
     7
370
    25
100
AcDbCircle
 10
394.1406352213
 20
-235.9812343296
 30
0.0
 40
32.18706381991863
100
AcDbArc
 50
246.5745218218
 51
262.5499078777
  0
ARC
  5
E6
330
1F
100
AcDbEntity
  8
0
  6
Continuous
 62
     7
370
    25
100
AcDbCircle
 10
484.8240872009
 20
-162.873803805
 30
0.0
 40
29.23984065744683
100
AcDbArc
 50
38.6201856733
 51
46.5813970119
  0
ARC
  5
E7
330
1F
100
AcDbEntity
  8
0
  6
Continuous
 62
     7
370
    25
100
AcDbCircle
 10
433.9987870516
 20
-250.8496401014
 30
0.0
 40
29.34505814214614
100
AcDbArc
 50
253.4408967836
 51
260.8580527826
  0
LWPOLYLINE
  5
E8
330
1F
100
AcDbEntity
  8
0
  6
Continuous
 62
     7
370
    25
100
AcDbPolyline
 90
       58
 70
   128
 43
0.0
 10
569.2612395382
 20
-177.9610504899
 10
570.6301454703
 20
-178.8073353512
 10
572.7106245482
 20
-180.3298312683
 10
574.6568158643
 20
-182.0591589703
 10
576.4627029559
 20
-183.9899703176
 10
578.1227039997
 20
-186.1162981944
 10
579.6316823486
 20
-188.4315747615
 10
580.9849807758
 20
-190.928639063
 10
582.1784162066
 20
-193.5997735292
 10
583.2082955234
 20
-196.4367222283
 10
584.0714419074
 20
-199.4307152041
 10
584.7651790339
 20
-202.5724996536
 10
585.2873679503
 20
-205.852364265
 10
585.6363912711
 20
-209.2601726765
 10
585.8111742519
 20
-212.7853880037
 10
585.8111742519
 20
-216.4171165646
 10
585.6363912711
 20
-220.144132026
 10
585.2873679503
 20
-223.9549141862
 10
584.7651790339
 20
-227.8376852872
 10
584.0714419074
 20
-231.7804415738
 10
583.2082955234
 20
-235.7710021521
 10
582.1784162066
 20
-239.7970242003
 10
580.9849807758
 20
-243.8460698852
 10
579.6316823486
 20
-247.9056192923
 10
578.1227039997
 20
-251.9631251765
 10
576.4627029559
 20
-256.0060494627
 10
574.6568158643
 20
-260.0218936647
 10
572.7106245482
 20
-263.998246031
 10
570.6301454703
 20
-267.9228119621
 10
568.4218060248
 20
-271.7834641989
 10
566.0924340013
 20
-275.5682701983
 10
563.6492259741
 20
-279.2655347165
 10
561.0997394001
 20
-282.8638195798
 10
558.4518531057
 20
-286.3520090808
 10
555.7137488479
 20
-289.7193267073
 10
552.8938902407
 20
-292.9553503489
 10
550.0009964133
 20
-296.0500944252
 10
547.044006449
 20
-298.9939756612
 10
544.0320609455
 20
-301.7779089038
 10
540.9744704051
 20
-304.3932827844
 10
537.8806836243
 20
-306.8320144693
 10
534.7602659622
 20
-309.0865682883
 10
531.6228606506
 20
-311.1499719869
 10
528.4781658275
 20
-313.0158482351
 10
525.3359013629
 20
-314.6784276951
 10
522.2057800475
 20
-316.1325778212
 10
519.0974769701
 20
-317.3738022861
 10
516.0205989782
 20
-318.3982586119
 10
512.9846574299
 20
-319.2027860666
 10
509.9990365846
 20
-319.7848934939
 10
507.0729639678
 20
-320.1427825043
 10
504.2154840299
 20
-320.275350515
 10
501.4354278528
 20
-320.1821899859
 10
498.7413907593
 20
-319.863583095
 10
496.1416993861
 20
-319.3205146624
 10
493.6443879764
 20
-318.5546645441
 10
491.2571773058
 20
-317.5683985043
 10
489.2677433232
 20
-316.5288643822
  0
LWPOLYLINE
  5
E9
330
1F
100
AcDbEntity
  8
0
  6
Continuous
 62
     1
370
    25
100
AcDbPolyline
 90
       59
 70
   128
 43
0.0
 10
471.6746925481
 20
-110.4447100908
 10
472.5209907295
 20
-111.1375651117
 10
474.5492498621
 20
-113.0190402413
 10
476.4363908093
 20
-115.100376112
 10
478.1772453136
 20
-117.3758626834
 10
479.7670297078
 20
-119.8392789202
 10
481.2014028665
 20
-122.4838562953
 10
482.4764187909
 20
-125.3023548318
 10
483.5885898294
 20
-128.2870494203
 10
484.5348656038
 20
-131.429755673
 10
485.3126540829
 20
-134.7218618648
 10
485.9198268509
 20
-138.1543418621
 10
486.3547085706
 20
-141.7177939048
 10
486.6161191301
 20
-145.4024425121
 10
486.7033367648
 20
-149.1981928515
 10
486.6161191301
 20
-153.0946425284
 10
486.3547085706
 20
-157.0811093433
 10
485.9198268509
 20
-161.1466651319
 10
485.3126540829
 20
-165.2801718854
 10
484.5348656038
 20
-169.4702935404
 10
483.5885898294
 20
-173.7055465467
 10
482.4764187909
 20
-177.9743264838
 10
481.2014028665
 20
-182.264927072
 10
479.7670297078
 20
-186.5655964452
 10
478.1772453136
 20
-190.8645386733
 10
476.4363908093
 20
-195.1499730724
 10
474.5492498621
 20
-199.4101555026
 10
472.5209907295
 20
-203.6334087807
 10
470.3571715269
 20
-207.8081530992
 10
468.0637244234
 20
-211.9229516529
 10
465.6469345678
 20
-215.9665228042
 10
463.1134295519
 20
-219.9277826678
 10
460.4701478006
 20
-223.7958755265
 10
457.7243385721
 20
-227.5601981661
 10
454.883530347
 20
-231.2104363741
 10
451.955501853
 20
-234.7365755844
 10
448.9482846991
 20
-238.1289662764
 10
445.8701212283
 20
-241.3782935532
 10
442.7294447614
 20
-244.4756615506
 10
439.5348677437
 20
-247.4125759458
 10
436.2951435487
 20
-250.180990342
 10
433.0191526491
 20
-252.7733203352
 10
429.7158742993
 20
-255.1824476947
 10
426.3943638155
 20
-257.4017821482
 10
423.0637239292
 20
-259.4252353333
 10
419.7330840428
 20
-261.2472571077
 10
416.411573559
 20
-262.86285703
 10
413.1082952092
 20
-264.2676136724
 10
409.8323043096
 20
-265.4576622616
 10
406.5925801146
 20
-266.4297538021
 10
403.3980030969
 20
-267.1812195221
 10
400.2573266301
 20
-267.7099993886
 10
397.1791631592
 20
-268.0146440069
 10
394.1719460053
 20
-268.0943123359
 10
391.2439175114
 20
-267.948802866
 10
388.4031092863
 20
-267.5784920194
 10
385.6573000577
 20
-266.9844132347
 10
383.0140183065
 20
-266.168188525
 10
382.0272341423
 20
-265.7959558116
  0
ARC
  5
EA
330
1F
100
AcDbEntity
  8
0
  6
Continuous
 62
     1
370
    25
100
AcDbCircle
 10
498.7944188144
 20
-229.6549541358
 30
0.0
 40
133.4815043824397
100
AcDbArc
 50
137.562822708
 51
162.4425565271
  0
LWPOLYLINE
  5
EB
330
1F
100
AcDbEntity
  8
0
  6
Continuous
 62
     1
370
    25
100
AcDbPolyline
 90
       53
 70
   128
 43
0.0
 10
477.5337129862
 20
-116.3479090138
 10
478.4222791883
 20
-117.5574569077
 10
480.0114313798
 20
-120.0198814416
 10
481.4452250193
 20
-122.6634062817
 10
482.7197351815
 20
-125.4807762438
 10
483.8314584098
 20
-128.4642783844
 10
484.7773601309
 20
-131.6057267964
 10
485.554837777
 20
-134.8965158374
 10
486.1617629323
 20
-138.3276262177
 10
486.5964760645
 20
-141.8896500953
 10
486.8577759886
 20
-145.5728290977
 10
486.9449567447
 20
-149.3670626904
 10
486.8577759886
 20
-153.2619530416
 10
486.5964760645
 20
-157.2468225145
 10
486.1617629323
 20
-161.3107554912
 10
485.554837777
 20
-165.4426067402
 10
484.7773601309
 20
-169.6310523642
 10
483.8314584098
 20
-173.864615657
 10
482.7197351815
 20
-178.1316861155
 10
481.4452250193
 20
-182.4205741888
 10
480.0114313798
 20
-186.7195219284
 10
478.4222791883
 20
-191.0167425278
 10
476.682120107
 20
-195.3004674716
 10
474.7957325348
 20
-199.5589465356
 10
472.7682847289
 20
-203.7805086203
 10
470.6053295368
 20
-207.9535860852
 10
468.3128043956
 20
-212.0667390838
 10
465.8969786491
 20
-216.1086890187
 10
463.3644851575
 20
-220.0683672144
 10
460.7222623459
 20
-223.93491187
 10
457.9775515696
 20
-227.697730417
 10
455.137876041
 20
-231.3465116845
 10
452.2110223905
 20
-234.8712426277
 10
449.2050064218
 20
-238.2622706829
 10
446.128073112
 20
-241.5103037673
 10
442.9886531481
 20
-244.6064292862
 10
439.7953523897
 20
-247.5421749698
 10
436.5569242103
 20
-250.3094822536
 10
433.2822431557
 20
-252.9007701553
 10
429.9802858462
 20
-255.308940216
 10
426.6601033173
 20
-257.5273802996
 10
423.3307953373
 20
-259.5500220056
 10
420.0014873572
 20
-261.3713174728
 10
416.6813048284
 20
-262.9862785408
 10
413.3793475189
 20
-264.3904672414
 10
410.1046664643
 20
-265.5800456072
 10
406.8662382849
 20
-266.5517479123
 10
403.6729375264
 20
-267.3029088065
 10
400.5335175625
 20
-267.831480424
 10
397.4565842528
 20
-268.1359989209
 10
394.4505682841
 20
-268.2156430278
 10
391.5237146336
 20
-268.0701853796
 10
389.9671788345
 20
-267.8965807814
  0
LWPOLYLINE
  5
EC
330
1F
100
AcDbEntity
  8
0
  6
Continuous
 62
     1
370
    25
100
AcDbPolyline
 90
       50
 70
   128
 43
0.0
 10
507.6691930432
 20
-144.623614197
 10
508.7158889525
 20
-146.0084179974
 10
510.2255521877
 20
-148.3247319
 10
511.5794617442
 20
-150.8229187022
 10
512.7734292789
 20
-153.4952547496
 10
513.8037722111
 20
-156.3334810699
 10
514.6673031851
 20
-159.3288216221
 10
515.361356413
 20
-162.4720175204
 10
515.883777137
 20
-165.7533589724
 10
516.2329585086
 20
-169.1626993513
 10
516.4078205147
 20
-172.6895006312
 10
516.4078205147
 20
-176.3228626665
 10
516.2329585086
 20
-180.0515553213
 10
515.883777137
 20
-183.8640519303
 10
515.361356413
 20
-187.7485675113
 10
514.6673031851
 20
-191.6931002096
 10
513.8037722111
 20
-195.6854524025
 10
512.7734292789
 20
-199.7132873506
 10
511.5794617442
 20
-203.764148971
 10
510.2255521877
 20
-207.8255264736
 10
508.7158889525
 20
-211.8848604463
 10
507.0551450705
 20
-215.92960369
 10
505.2484466521
 20
-219.9472546757
 10
503.3013807889
 20
-223.9253925268
 10
501.2199639436
 20
-227.8517256856
 10
499.010631413
 20
-231.7141162474
 10
496.6802109866
 20
-235.5006255854
 10
494.2359045072
 20
-239.1995493306
 10
491.6852720658
 20
-242.7994569141
 10
489.0361924887
 20
-246.2892174195
 10
486.2968580697
 20
-249.658042168
 10
483.4757297887
 20
-252.8955288211
 10
480.5815346774
 20
-255.9916629015
 10
477.6232144532
 20
-258.9368717808
 10
474.6099149822
 20
-261.7220550973
 10
471.5509480838
 20
-264.3386068059
 10
468.455770457
 20
-266.7784334267
 10
465.333948778
 20
-269.0339985297
 10
462.1951322055
 20
-271.0983325222
 10
459.0490227465
 20
-272.9650436734
 10
455.9053447984
 20
-274.6283782831
 10
452.7738158441
 20
-276.0831767618
 10
449.6641140182
 20
-277.3249592752
 10
446.5858524242
 20
-278.3498797338
 10
443.5485450546
 20
-279.1547637174
 10
440.5615807785
 20
-279.7371356597
 10
437.6341910728
 20
-280.0951888066
 10
434.775425656
 20
-280.2278175337
 10
431.9941208785
 20
-280.1346112597
 10
429.3364170025
 20
-279.821950035
  0
ARC
  5
ED
330
1F
100
AcDbEntity
  8
0
  6
Continuous
 62
     1
370
    25
100
AcDbCircle
 10
499.7275853842
 20
-230.1936710369
 30
0.0
 40
133.7337250246395
100
AcDbArc
 50
138.4237767951
 51
161.5815958861
  0
LWPOLYLINE
  5
EE
330
1F
100
AcDbEntity
  8
0
  6
Continuous
 62
     1
370
    25
100
AcDbPolyline
 90
       54
 70
   128
 43
0.0
 10
504.1126457196
 20
-140.8714646279
 10
505.495096595
 20
-142.1329482895
 10
507.3009836866
 20
-144.0637596367
 10
508.9609847304
 20
-146.1900875136
 10
510.4699630793
 20
-148.5053640806
 10
511.8232615065
 20
-151.0024283821
 10
513.0166969373
 20
-153.6735628483
 10
514.0465762541
 20
-156.5105115474
 10
514.9097226382
 20
-159.5045045233
 10
515.6034597646
 20
-162.6462889728
 10
516.125648681
 20
-165.9261535841
 10
516.4746720019
 20
-169.3339619957
 10
516.6494549826
 20
-172.8591773228
 10
516.6494549826
 20
-176.4909058838
 10
516.4746720019
 20
-180.2179213451
 10
516.125648681
 20
-184.0287035054
 10
515.6034597646
 20
-187.9114746063
 10
514.9097226382
 20
-191.8542308929
 10
514.0465762541
 20
-195.8447914713
 10
513.0166969373
 20
-199.8708135194
 10
511.8232615065
 20
-203.9198592043
 10
510.4699630793
 20
-207.9794086115
 10
508.9609847304
 20
-212.0369144957
 10
507.3009836866
 20
-216.0798387818
 10
505.495096595
 20
-220.0956829838
 10
503.548905279
 20
-224.0720353501
 10
501.468426201
 20
-227.9966012812
 10
499.2600867555
 20
-231.857253518
 10
496.930714732
 20
-235.6420595175
 10
494.4875067049
 20
-239.3393240357
 10
491.9380201308
 20
-242.9376088989
 10
489.2901338364
 20
-246.4257984
 10
486.5520295786
 20
-249.7931160264
 10
483.7321709714
 20
-253.0291396681
 10
480.8392771441
 20
-256.1238837444
 10
477.8822871798
 20
-259.0677649803
 10
474.8703416763
 20
-261.8516982229
 10
471.8127511358
 20
-264.4670721036
 10
468.7189643551
 20
-266.9058037884
 10
465.5985466929
 20
-269.1603576074
 10
462.4611413813
 20
-271.223761306
 10
459.3164465582
 20
-273.0896375542
 10
456.1741820937
 20
-274.7522170143
 10
453.0440607782
 20
-276.2063671403
 10
449.9357577009
 20
-277.4475916052
 10
446.8588797089
 20
-278.472047931
 10
443.8229381606
 20
-279.2765753857
 10
440.8373173153
 20
-279.858682813
 10
437.9112446985
 20
-280.2165718235
 10
435.0537647607
 20
-280.3491398341
 10
432.2737085835
 20
-280.2559793051
 10
429.57967149
 20
-279.9373724141
 10
426.9799801168
 20
-279.3943039815
 10
424.5693700428
 20
-278.6593885036
  0
ENDSEC
  0
SECTION
  2
OBJECTS
  0
DICTIONARY
  5
C
330
0
100
AcDbDictionary
281
     1
  3
ACAD_GROUP
350
D
  3
ACAD_LAYOUT
350
1A
  3
ACAD_MLINESTYLE
350
17
  3
ACAD_PLOTSETTINGS
350
19
  3
ACAD_PLOTSTYLENAME
350
E
  3
ACAD_SCALELIST
350
47
  0
DICTIONARY
  5
D
102
{ACAD_REACTORS
330
C
102
}
330
C
100
AcDbDictionary
281
     1
  0
DICTIONARY
  5
1A
102
{ACAD_REACTORS
330
C
102
}
330
C
100
AcDbDictionary
281
     1
  3
Layout1
350
1E
  3
Layout2
350
26
  3
Model
350
22
  0
DICTIONARY
  5
17
102
{ACAD_REACTORS
330
C
102
}
330
C
100
AcDbDictionary
281
     1
  3
Standard
350
18
  0
DICTIONARY
  5
19
102
{ACAD_REACTORS
330
C
102
}
330
C
100
AcDbDictionary
281
     1
  0
ACDBDICTIONARYWDFLT
  5
E
102
{ACAD_REACTORS
330
C
102
}
330
C
100
AcDbDictionary
281
     1
  3
Normal
350
F
100
AcDbDictionaryWithDefault
340
F
  0
DICTIONARY
  5
47
102
{ACAD_REACTORS
330
C
102
}
330
C
100
AcDbDictionary
281
     1
  3
A0
350
48
  3
A1
350
49
  3
A2
350
4A
  3
A3
350
4B
  3
A4
350
4C
  3
A5
350
4D
  3
A6
350
4E
  3
A7
350
4F
  3
A8
350
50
  3
A9
350
51
  3
B0
350
52
  3
B1
350
53
  3
B2
350
54
  3
B3
350
55
  3
B4
350
56
  3
B5
350
57
  3
B6
350
58
  3
B7
350
59
  3
B8
350
5A
  3
B9
350
5B
  3
C0
350
5C
  3
C1
350
5D
  3
C2
350
5E
  3
C3
350
5F
  3
C4
350
60
  3
C5
350
61
  3
C6
350
62
  3
C7
350
63
  3
C8
350
64
  3
C9
350
65
  3
D0
350
66
  3
D1
350
67
  3
D2
350
68
  0
LAYOUT
  5
1E
102
{ACAD_REACTORS
330
1A
102
}
330
1A
100
AcDbPlotSettings
  1

  2
none_device
  4

  6

 40
0.0
 41
0.0
 42
0.0
 43
0.0
 44
0.0
 45
0.0
 46
0.0
 47
0.0
 48
0.0
 49
0.0
140
0.0
141
0.0
142
1.0
143
1.0
 70
   688
 72
     1
 73
     0
 74
     5
  7

 75
    16
147
1.0
148
0.0
149
0.0
100
AcDbLayout
  1
Layout1
 70
     1
 71
     1
 10
0.0
 20
0.0
 11
420.0
 21
297.0
 12
0.0
 22
0.0
 32
0.0
 14
1.0000000000E+20
 24
1.0000000000E+20
 34
1.0000000000E+20
 15
-1.0000000000E+20
 25
-1.0000000000E+20
 35
-1.0000000000E+20
146
0.0
 13
0.0
 23
0.0
 33
0.0
 16
1.0
 26
0.0
 36
0.0
 17
0.0
 27
1.0
 37
0.0
 76
     0
330
1B
  0
LAYOUT
  5
26
102
{ACAD_REACTORS
330
1A
102
}
330
1A
100
AcDbPlotSettings
  1

  2
none_device
  4

  6

 40
0.0
 41
0.0
 42
0.0
 43
0.0
 44
0.0
 45
0.0
 46
0.0
 47
0.0
 48
0.0
 49
0.0
140
0.0
141
0.0
142
1.0
143
1.0
 70
   688
 72
     1
 73
     0
 74
     5
  7

 75
    16
147
1.0
148
0.0
149
0.0
100
AcDbLayout
  1
Layout2
 70
     1
 71
     2
 10
0.0
 20
0.0
 11
0.0
 21
0.0
 12
0.0
 22
0.0
 32
0.0
 14
0.0
 24
0.0
 34
0.0
 15
0.0
 25
0.0
 35
0.0
146
0.0
 13
0.0
 23
0.0
 33
0.0
 16
1.0
 26
0.0
 36
0.0
 17
0.0
 27
1.0
 37
0.0
 76
     0
330
23
  0
LAYOUT
  5
22
102
{ACAD_REACTORS
330
1A
102
}
330
1A
100
AcDbPlotSettings
  1

  2
none_device
  4
Letter_(8.50_x_11.00_Inches)
  6

 40
6.35
 41
6.35
 42
6.35000508
 43
6.35000508
 44
215.9
 45
279.4
 46
0.0
 47
0.0
 48
0.0
 49
0.0
140
0.0
141
0.0
142
1.0
143
1.0
 70
  1712
 72
     1
 73
     0
 74
     0
  7

 75
     0
147
1.0
148
0.0
149
0.0
100
AcDbLayout
  1
Model
 70
     1
 71
     0
 10
0.0
 20
0.0
 11
279.4
 21
215.9
 12
0.0
 22
0.0
 32
0.0
 14
0.0
 24
0.0
 34
0.0
 15
279.4
 25
215.9
 35
0.0
146
0.0
 13
0.0
 23
0.0
 33
0.0
 16
1.0
 26
0.0
 36
0.0
 17
0.0
 27
1.0
 37
0.0
 76
     0
330
1F
331
29
  0
MLINESTYLE
  5
18
102
{ACAD_REACTORS
330
17
102
}
330
17
100
AcDbMlineStyle
  2
Standard
 70
     0
  3

 62
   256
 51
90.0
 52
90.0
 71
     2
 49
0.5
 62
   256
  6
BYLAYER
 49
-0.5
 62
   256
  6
BYLAYER
  0
ACDBPLACEHOLDER
  5
F
102
{ACAD_REACTORS
330
E
102
}
330
E
  0
SCALE
  5
48
102
{ACAD_REACTORS
330
47
102
}
330
47
100
AcDbScale
 70
     0
300
1:1
140
1.0
141
1.0
290
     1
  0
SCALE
  5
49
102
{ACAD_REACTORS
330
47
102
}
330
47
100
AcDbScale
 70
     0
300
1:2
140
1.0
141
2.0
290
     0
  0
SCALE
  5
4A
102
{ACAD_REACTORS
330
47
102
}
330
47
100
AcDbScale
 70
     0
300
1:4
140
1.0
141
4.0
290
     0
  0
SCALE
  5
4B
102
{ACAD_REACTORS
330
47
102
}
330
47
100
AcDbScale
 70
     0
300
1:5
140
1.0
141
5.0
290
     0
  0
SCALE
  5
4C
102
{ACAD_REACTORS
330
47
102
}
330
47
100
AcDbScale
 70
     0
300
1:8
140
1.0
141
8.0
290
     0
  0
SCALE
  5
4D
102
{ACAD_REACTORS
330
47
102
}
330
47
100
AcDbScale
 70
     0
300
1:10
140
1.0
141
10.0
290
     0
  0
SCALE
  5
4E
102
{ACAD_REACTORS
330
47
102
}
330
47
100
AcDbScale
 70
     0
300
1:16
140
1.0
141
16.0
290
     0
  0
SCALE
  5
4F
102
{ACAD_REACTORS
330
47
102
}
330
47
100
AcDbScale
 70
     0
300
1:20
140
1.0
141
20.0
290
     0
  0
SCALE
  5
50
102
{ACAD_REACTORS
330
47
102
}
330
47
100
AcDbScale
 70
     0
300
1:30
140
1.0
141
30.0
290
     0
  0
SCALE
  5
51
102
{ACAD_REACTORS
330
47
102
}
330
47
100
AcDbScale
 70
     0
300
1:40
140
1.0
141
40.0
290
     0
  0
SCALE
  5
52
102
{ACAD_REACTORS
330
47
102
}
330
47
100
AcDbScale
 70
     0
300
1:50
140
1.0
141
50.0
290
     0
  0
SCALE
  5
53
102
{ACAD_REACTORS
330
47
102
}
330
47
100
AcDbScale
 70
     0
300
1:100
140
1.0
141
100.0
290
     0
  0
SCALE
  5
54
102
{ACAD_REACTORS
330
47
102
}
330
47
100
AcDbScale
 70
     0
300
2:1
140
2.0
141
1.0
290
     0
  0
SCALE
  5
55
102
{ACAD_REACTORS
330
47
102
}
330
47
100
AcDbScale
 70
     0
300
4:1
140
4.0
141
1.0
290
     0
  0
SCALE
  5
56
102
{ACAD_REACTORS
330
47
102
}
330
47
100
AcDbScale
 70
     0
300
8:1
140
8.0
141
1.0
290
     0
  0
SCALE
  5
57
102
{ACAD_REACTORS
330
47
102
}
330
47
100
AcDbScale
 70
     0
300
10:1
140
10.0
141
1.0
290
     0
  0
SCALE
  5
58
102
{ACAD_REACTORS
330
47
102
}
330
47
100
AcDbScale
 70
     0
300
100:1
140
100.0
141
1.0
290
     0
  0
SCALE
  5
59
102
{ACAD_REACTORS
330
47
102
}
330
47
100
AcDbScale
 70
     0
300
1/128" = 1'-0"
140
0.0078125
141
12.0
290
     0
  0
SCALE
  5
5A
102
{ACAD_REACTORS
330
47
102
}
330
47
100
AcDbScale
 70
     0
300
1/64" = 1'-0"
140
0.015625
141
12.0
290
     0
  0
SCALE
  5
5B
102
{ACAD_REACTORS
330
47
102
}
330
47
100
AcDbScale
 70
     0
300
1/32" = 1'-0"
140
0.03125
141
12.0
290
     0
  0
SCALE
  5
5C
102
{ACAD_REACTORS
330
47
102
}
330
47
100
AcDbScale
 70
     0
300
1/16" = 1'-0"
140
0.0625
141
12.0
290
     0
  0
SCALE
  5
5D
102
{ACAD_REACTORS
330
47
102
}
330
47
100
AcDbScale
 70
     0
300
3/32" = 1'-0"
140
0.09375
141
12.0
290
     0
  0
SCALE
  5
5E
102
{ACAD_REACTORS
330
47
102
}
330
47
100
AcDbScale
 70
     0
300
1/8" = 1'-0"
140
0.125
141
12.0
290
     0
  0
SCALE
  5
5F
102
{ACAD_REACTORS
330
47
102
}
330
47
100
AcDbScale
 70
     0
300
3/16" = 1'-0"
140
0.1875
141
12.0
290
     0
  0
SCALE
  5
60
102
{ACAD_REACTORS
330
47
102
}
330
47
100
AcDbScale
 70
     0
300
1/4" = 1'-0"
140
0.25
141
12.0
290
     0
  0
SCALE
  5
61
102
{ACAD_REACTORS
330
47
102
}
330
47
100
AcDbScale
 70
     0
300
3/8" = 1'-0"
140
0.375
141
12.0
290
     0
  0
SCALE
  5
62
102
{ACAD_REACTORS
330
47
102
}
330
47
100
AcDbScale
 70
     0
300
1/2" = 1'-0"
140
0.5
141
12.0
290
     0
  0
SCALE
  5
63
102
{ACAD_REACTORS
330
47
102
}
330
47
100
AcDbScale
 70
     0
300
3/4" = 1'-0"
140
0.75
141
12.0
290
     0
  0
SCALE
  5
64
102
{ACAD_REACTORS
330
47
102
}
330
47
100
AcDbScale
 70
     0
300
1" = 1'-0"
140
1.0
141
12.0
290
     0
  0
SCALE
  5
65
102
{ACAD_REACTORS
330
47
102
}
330
47
100
AcDbScale
 70
     0
300
1-1/2" = 1'-0"
140
1.5
141
12.0
290
     0
  0
SCALE
  5
66
102
{ACAD_REACTORS
330
47
102
}
330
47
100
AcDbScale
 70
     0
300
3" = 1'-0"
140
3.0
141
12.0
290
     0
  0
SCALE
  5
67
102
{ACAD_REACTORS
330
47
102
}
330
47
100
AcDbScale
 70
     0
300
6" = 1'-0"
140
6.0
141
12.0
290
     0
  0
SCALE
  5
68
102
{ACAD_REACTORS
330
47
102
}
330
47
100
AcDbScale
 70
     0
300
1'-0" = 1'-0"
140
12.0
141
12.0
290
     0
  0
ENDSEC
  0
EOF
